Перейти до вмісту

Всім хто грає на гітарі


Повідомлень в темі: 247

#141 Manitou

    Частий гість

  • Користувачі
  • PipPipPip
  • 31 повідомлень
  • Місто:село де Nolex живе :)

Відправлено 26.02.2009 – 20:55

табулатури використовуються для опису соло частин, тому це точно не боєм і не перебором грається. Якщо ти чув соляки у піснях, то зіставлюй і зрозумієш як воно грається. Ще недолік табулатур - те, що тут немає смуги часу, тому не чувши саму мелодію важко її по табах зіграти,
  • 0

#142 Idearter

    Генеральний писар

  • Користувачі
  • PipPipPipPipPipPipPipPipPip
  • 673 повідомлень
  • Стать:Чоловік

Відправлено 26.02.2009 – 20:58

Перегляд дописуЙа_ЯбЛуЧкО_XD (26.02.2009 20:37) писав:

і натискати, і грати!!!
дякую, буду знати
  • 0

#143 Йа_ЯбЛуЧкО_XD

    Генеральний писар

  • Користувачі
  • PipPipPipPipPipPipPipPipPip
  • 649 повідомлень
  • Стать:Жінка
  • Місто:if.ua

Відправлено 26.02.2009 – 21:01

Manitou, не завжди для соляків... часто позначається для пісень, у яких супровід неможливо записати акордами.А щодо лінії часу -існує така дуже корисна річ, як Гітар Про:)
Шkідниk, оця таба - то часом не Бумбокс - "Ким ми були"? Щось мені на це змахує))
  • 0

#144 KinoManiak

    Генеральний писар

  • Користувачі
  • PipPipPipPipPipPipPipPipPip
  • 887 повідомлень
  • Стать:Чоловік
  • Місто:Львів

Відправлено 26.02.2009 – 21:04

Шkідниk скачай GuitarPro, там наочно все і зрозуміло.
  • 0

#145 Idearter

    Генеральний писар

  • Користувачі
  • PipPipPipPipPipPipPipPipPip
  • 673 повідомлень
  • Стать:Чоловік

Відправлено 26.02.2009 – 21:47

Перегляд дописуЙа_ЯбЛуЧкО_XD (26.02.2009 21:01) писав:

Manitou, не завжди для соляків... часто позначається для пісень, у яких супровід неможливо записати акордами.А щодо лінії часу -існує така дуже корисна річ, як Гітар Про:)
Шkідниk, оця таба - то часом не Бумбокс - "Ким ми були"? Щось мені на це змахує))
так це та пісня.
якшо хтось може дати силь на Гітар про то прошу викладіть
  • 0

#146 Pit

    Генеральний писар

  • Користувачі
  • PipPipPipPipPipPipPipPipPip
  • 723 повідомлень
  • Стать:Чоловік

Відправлено 26.02.2009 – 22:11

Перегляд дописуШkідниk (26.02.2009 22:47) писав:

так це та пісня.
якшо хтось може дати силь на Гітар про то прошу викладіть
Guitar Pro 5.2 Взагалі, для пошуку програм є окрема тема в розділі софту...
Прихований текст


Народ, я розумію шо прошу забагато, але мені ше з дитинства шось важке впало на вухо... Скажіть, по яких струнах грати пісеньку Наталі - Вогонь. Акорди є тут, пісня - тут. Не прошу всю пісню. Хоча б 2 рядка куплету і 2 приспіву, а далі до мене дійде(може))))
  • 0

#147 Lactarius

    Генеральний писар

  • Користувачі
  • PipPipPipPipPipPipPipPipPip
  • 976 повідомлень
  • Стать:Чоловік
  • Місто:Львів

Відправлено 26.02.2009 – 23:21

Цитата

табулатури використовуються для опису соло частин, тому це точно не боєм і не перебором грається. Якщо ти чув соляки у піснях, то зіставлюй і зрозумієш як воно грається. Ще недолік табулатур - те, що тут немає смуги часу, тому не чувши саму мелодію важко її по табах зіграти,

Є розмірності. в гітар про хвостики такі.
  • 0

#148 oksdemidova@rambler.ru

    Генеральний писар

  • Користувачі
  • PipPipPipPipPipPipPipPipPip
  • 554 повідомлень
  • Стать:Жінка
  • Місто:Львів

Відправлено 27.02.2009 – 13:39

Народ!!!Скажіть де можна купити справжній Ібанез чорно-білий???
  • 0

#149 Роланд

    Purple haze all around

  • Користувачі
  • PipPipPipPipPipPipPipPipPipPip
  • 1007 повідомлень
  • Стать:Чоловік
  • Місто:Житомир

Відправлено 28.02.2009 – 15:43

Міра Вогню

такий покатить?)

а ось, що є у нас)
  • 0

#150 oksdemidova@rambler.ru

    Генеральний писар

  • Користувачі
  • PipPipPipPipPipPipPipPipPip
  • 554 повідомлень
  • Стать:Жінка
  • Місто:Львів

Відправлено 01.03.2009 – 12:45

Перегляд дописуРоланд (28.02.2009 15:43) писав:


чорно-білий хочу...мрія=)
  • 0

#151 oksdemidova@rambler.ru

    Генеральний писар

  • Користувачі
  • PipPipPipPipPipPipPipPipPip
  • 554 повідомлень
  • Стать:Жінка
  • Місто:Львів

Відправлено 05.03.2009 – 12:17

хтось продає примочку для електрогітари?
  • 0

#152 Pit

    Генеральний писар

  • Користувачі
  • PipPipPipPipPipPipPipPipPip
  • 723 повідомлень
  • Стать:Чоловік

Відправлено 24.04.2009 – 12:25

Людоньки, підкиньте якісь соляки... бо нема шо грати...
  • 0

#153 Teo

    бовдур, булька, кулька, круть!

  • Користувачі
  • PipPipPipPipPipPipPipPipPipPip
  • 2841 повідомлень
  • Стать:Чоловік

Відправлено 24.04.2009 – 12:29

Цитата

Людоньки, підкиньте якісь соляки... бо нема шо грати...
пиши свої
  • 0

#154 Pit

    Генеральний писар

  • Користувачі
  • PipPipPipPipPipPipPipPipPip
  • 723 повідомлень
  • Стать:Чоловік

Відправлено 24.04.2009 – 12:53

Пожалуста:

Це Children of bodom - Kissing the shadow Просто зашибісь пісня. Правда я її ще всієї не вивчив, но соляк там жесть... якшо добре граєш - впірьод! (В другій половині пісні взагалі можна буда врізати, я навіть не уявляю як так ганяти можна...)
Прикріплений файл  kissing_the_shadows.zip   6.13К   2 Кількість завантажень:

Evanescence - Whisper

|-------------------------------------------------------------|
|-------------------------------------------------------------|
|-14-14-14\12-14-15-15-15\14-14\12-12-12-12\10-12-14-14-14-14-|
|-------------------------------------------------------------|
|-12-12-12\10-12-13-13-13\12-12\10-10-10-10\8--10-12-12-12-12-|
|-------------------------------------------------------------|

|----------------------------------------------|
|----------------------------------------------|
|-14\12-12\10-10-10-10-9-10----12-12-12-10-9---|
|---------------------------10---------------x-|
|-12\10-12\8--8--8--8--7-8--8--10-10-10-8--7-x-|
|----------------------------------------------|

|-------------------------------|--------------------------|
|-------------------------------|--------------------------|
|-10-9-10-9-10-9-10-9-10-10-9-9-|-7-7-7-9-10-12-12-12-10-9-|
|-------------------------------|--------------------------|
|-8--7-8--7-8--7-8--7-8--8--7-7-|-5-5-5-7-8--10-10-10-8--7-|
|-------------------------------|--------------------------|

|-----------------------------------------------------------|
|-----------------------------------------------------------|
|-/14-14-14-15-14-17-17-17-15-14-10-10-10-12-14-9-9-9-10-12-|
|-----------------------------------------------------------|
|-/12-12-12-13-12-15-15-15-13-12-8--8--8--10-12-7-7-7-8--10-|
|-----------------------------------------------------------|

~ ~ ~ ~ ~ ~ ~ ~ ~ ~ ~ ~
|----------------------------------|
|----------------------------------|
|-14-14-14-14-14-14----------------|
|----------------------------------|
|-12-12-12-12-12-12----------------|
|----------------------------------|

NightWish-Walking in the air

E|------7-7----------------------7-7----------------------------------------|
B|---7------10-10-7~----------7------10-10-7~---------------------8-8-7-7---|
G|-----------------------------------------------7-9~-----------9---------9~|
D|--------------------------------------------------------------------------|
A|--------------------------------------------------------------------------|
E|--------------------------------------------------------------------------|

E|----------------------|
B|----------------------|
G|----7-7-6-6-----------|
D|--9---------9---7--9--|
A|----------------------|
E|----------------------|

Це не всі)) просто тоді дуже багато всього буде.

А взагалі ти шо граєш???
  • 0

#155 Живчик2009

    Чайник

  • Користувачі
  • Pip
  • 3 повідомлень

Відправлено 06.05.2009 – 19:21

Всім привіт! )
Тут недавно гітару придбав ! Є белике бажання навчитись грати , слух маю дуже добрий, табулатури читати вмію!
Напишіть будь ласка якісь пісні які можна легко навчитись грати! І техніку бою до пісні!
Зараз навчився грати Мері -Місто. мені чомусь легше бринькати боєм.
Або можливо дайте якісь сайти де можна навчитись!
В мене повільний інтернет тому не можу скачувати різні відео-самоучителі!
дякую!
  • 0

#156 Romun

    Генеральний писар

  • Користувачі
  • PipPipPipPipPipPipPipPipPip
  • 573 повідомлень
  • Стать:Чоловік
  • Місто:Полтава

Відправлено 09.05.2009 – 09:26

Перегляд дописуЖивчик2009 (6.05.2009 20:21) писав:

Всім привіт! )
Тут недавно гітару придбав ! Є белике бажання навчитись грати , слух маю дуже добрий, табулатури читати вмію!
Напишіть будь ласка якісь пісні які можна легко навчитись грати! І техніку бою до пісні!
Зараз навчився грати Мері -Місто. мені чомусь легше бринькати боєм.
Або можливо дайте якісь сайти де можна навчитись!
В мене повільний інтернет тому не можу скачувати різні відео-самоучителі!
дякую!
Легко навчитись грати можна наступні пісні ( правда вони без бою):

Маленькая елочка
тональность Am-C размер 2/4

C C G7 C С7
1 --3--0--0---3--0--0--3--1--0--------
2 ------------------------------3--1--
3 ------------------------------------
Маленькой елочке холодно зимой

F7+ C G7 C
1 --5--8--5---3--0--0--3--1--0--------
2 ------------------------------3--1--
3 ------------------------------------
Из лесу елочку взяли мы домой


Песня про кузнечика

1 --0-----0------0-----------O------------------------0--0--O-------
2 -----0-----0-------4---4-------4---0---4---0----4-----------------
3 ------------------------------------------------------------------
В траве сидел куз-не-чик В траве сидел куз-не-чик

1 --0-----0------0-----------O------------------------0--0--O-------
2 -----0-----0-------4---4-------4---0---4---0----4-----------------
3 ------------------------------------------------------------------
Совсем как о- гу -ре-чик Зе-ле-нень-кий он был

1 --0--2----2-2-2---2---3-----3-3-3---3---3---2---0-----0--0--O-----
2 ---------------------------------------------------4--------------
3 ------------------------------------------------------------------
Представь-те-себе Представь-те-се-бе Совсем как о- гу -ре-чик
Представь-те-себе Представь-те-се-бе Зе-ле-нень-кий он был

З них сам починав, правда практично ними і закінчив :)
  • 0

#157 Живчик2009

    Чайник

  • Користувачі
  • Pip
  • 3 повідомлень

Відправлено 14.05.2009 – 17:30

Дякую! :happytwo:
  • 0

#158 d^.^b

    убухана скотина

  • Користувачі
  • PipPipPipPipPipPipPipPipPipPip
  • 1206 повідомлень
  • Місто:ілюзії

Відправлено 16.05.2009 – 00:47

хто знає як в цьому гітар про писати ноти і таби?? о__0
бо хелпи на агліцьком нетямлю %)
  • 0

#159 Pit

    Генеральний писар

  • Користувачі
  • PipPipPipPipPipPipPipPipPip
  • 723 повідомлень
  • Стать:Чоловік

Відправлено 16.05.2009 – 11:02

Та там все інтуітивно просто... Вибираєш тривалість нот і ліпиш мишкою на нотному стані де треба... Шо не ясно?
  • 0

#160 d^.^b

    убухана скотина

  • Користувачі
  • PipPipPipPipPipPipPipPipPipPip
  • 1206 повідомлень
  • Місто:ілюзії

Відправлено 16.05.2009 – 23:42

тобто просто перетягти чи двічі клікнути??
фігня якась - більше однієї ноти на такт невдається прописати.... чи то так і треба?? о__0
  • 0



Кількість користувачів, що читають цю тему: 1

0 користувачів, 1 гостей, 0 анонімних