Перейти до вмісту

Sum 41


Повідомлень в темі: 42

#1 дурне дитя з Венери

    Т псих 2007 [b][img]star[/img][/b]

  • Користувачі
  • PipPipPipPipPipPipPipPipPipPip
  • 1797 повідомлень
  • Стать:Чоловік
  • Місто:КИЇВ

Відправлено 07.10.2006 – 22:01

  • 42
Пишіть все що знаєте про цю групу ,ваші враження !!! :angry:

#2 КаваНеПийПивоЇжБорщ...

    Т Чарівне Гімно 2009

  • Користувачі
  • PipPipPipPipPipPipPipPipPipPip
  • 3018 повідомлень
  • Стать:Не скажу
  • Місто:мами

Відправлено 08.10.2006 – 18:29

та так......нічого! не слухаю!
пака,)
  • 0

#3 ALE

    Постійний житель

  • Користувачі
  • PipPipPipPipPip
  • 160 повідомлень
  • Місто:Київ

Відправлено 08.10.2006 – 19:36

колись подобалось - дуже недовго
а насправді - лайно.
попса галіма
  • 0

#4 Alatiel

    Частий гість

  • Користувачі
  • PipPipPip
  • 46 повідомлень
  • Місто:SinCity

Відправлено 10.10.2006 – 11:59

Соліст цієї групи Deryck Whibley 15 липня одружився з Avril Lavigne! :angry:

Прикріплені файли

  • Прикріплений файл  08oc4_1_.jpg   62.72К   47 Кількість завантажень:
  • Прикріплений файл  09qt3_1_.jpg   43.93К   37 Кількість завантажень:

Повідомлення відредагував Alatiel: 10.10.2006 – 12:00

  • 0

#5 Viktor

    НЕВГАМОВНИЙ

  • Користувачі
  • PipPipPipPipPipPipPipPipPip
  • 566 повідомлень
  • Стать:Чоловік
  • Місто:Львів, L'viv, Lwow, Leopolis, Lєmberg, Lion

Відправлено 10.10.2006 – 13:41

Перегляд дописуAlatiel (10.10.2006 12:59) писав:

Соліст цієї групи Deryck Whibley 15 липня одружився з Avril Lavigne! :angry:

цікава інформація, але схожа тема вже існує!
  • 0

#6 Бісенятко

    Профі

  • Користувачі
  • PipPipPipPipPipPipPip
  • 353 повідомлень

Відправлено 18.10.2006 – 20:31

Не слухаю, бо нічого в них особливого нема
  • 0

#7 дурне дитя з Венери

    Т псих 2007 [b][img]star[/img][/b]

  • Користувачі
  • PipPipPipPipPipPipPipPipPipPip
  • 1797 повідомлень
  • Стать:Чоловік
  • Місто:КИЇВ

Відправлено 19.10.2006 – 20:06

До речі музичка у Sum 41 і у Avril схожа...
  • 0

#8 дурне дитя з Венери

    Т псих 2007 [b][img]star[/img][/b]

  • Користувачі
  • PipPipPipPipPipPipPipPipPipPip
  • 1797 повідомлень
  • Стать:Чоловік
  • Місто:КИЇВ

Відправлено 29.01.2007 – 20:59

Якщо комусь цікаво, то ось аккорди на пісню Still Waiting
Guitar 1(Palm muted) So am I still waiting...
|---------------------------------------------------------------...
|---------------------------------------------------------------...
|-9-9-9-9-9-9-9-9--5-5-5-5-5-5-5-5------------------------------...
|-9-9-9-9-9-9-9-9--5-5-5-5-5-5-5-5--5-5-5-5-5-5-5-5--9-9-9-9-9-9...
|-7-7-7-7-7-7-7-7--3-3-3-3-3-3-3-3--5-5-5-5-5-5-5-5--9-9-9-9-9-9...
|-----------------------------------3-3-3-3-3-3-3-3--7-7-7-7-7-7...

|---------------------------------------------------------------...
|---------------------------------------------------------------...
|-9-9-9-9-9-9-9-9--5-5-5-5-5-5-5-5-------------------7-7-7-7-7-7...
|-9-9-9-9-9-9-9-9--5-5-5-5-5-5-5-5--5





-5-5-5-5-5-5-5--7-7-7-7-7-7-7-7-7-x
|-7-7-7-7-7-7-7-7--3-3-3-3-3-3-3-3--5-5-5-5-5-5-5-5--5-5-5-5-5-5...
|-----------------------------------3-3-3-3-3-3-3-3-------------...

Последний аккорд во вступлении не глушится.

BRIDGE 1

Guitar 2
|-------------------------------------------x
|-------------------------------------------x
|-12-11-12---12-11-12---12-11-12-14-12-11-7-x играется 2 раза
|-10--9-10---10--9-10---10--9-10-12-10--9-5-x
|-------------------------------------------x
|-------------------------------------------x

Guitar 1
|---------------------------------------------------------------...
|---------------------------------------------------------------...
|------------------5-5-5-5-5-5-5-5-------------------5-5-5-5-4-4... играется 2 раза
|-2-2-2-2-2-2-2-2--5-5-5-5-5-5-5-5--2-2-2-2-2-2-2-2--5-5-5-5-5-5...
|-2-2-2-2-2-2-2-2--3-3-3-3-3-3-3-3--2-2-2-2-2-2-2-2--3-3-3-3-2-2...
|-0-0-0-0-0-0-0-0-------------------0-0-0-0-0-0-0-0-------------...


VERSE

Guitar 1 Drop dead a bullet to my head...
|--------------------------------------------------------------x...
|--------------------------------------------------------------x...
|--------------------------------------------------------------x...
|-2-2-2-2-2-2-2-2--8/7-8/7-57--2-2-2-2-2-2-2-2--5-5-5-5-5-2---x
|-2-2-2-2-2-2-2-2--8/7-8/7-57--2-2-2-2-2-2-2-2--5-5-5-5-5-2---x
|-0-0-0-0-0-0-0-0--6/5-6/5-35--0-0-0-0-0-0-0-0--3-3-3-3-3-0---x
_____pm______/ _____pm______/

|--------------------------------------------------------------x...
|--------------------------------------------------------------x...
|------------------------------------------------4-4-4-4-4-4/7-x...
|-2-2-2-2-2-2-2-2--8/7-8/7-57--2-2-2-2-2-2-2-2--4-4-4-4-4-4/5-x
|-2-2-2-2-2-2-2-2--8/7-8/5-55--2-2-2-2-2-2-2-2--2-2-2-2-2-2/5-x
|-0-0-0-0-0-0-0-0--6/5-6/5-35--0-0-0-0-0-0-0-0----------------x
_____pm______/ ______pm_____/


CHORUS

Guitar 1 and Guitar 2 So am I still waiting...
|---------------------------------------------------------------...
|---------------------------------------------------------------...
|-9-9-9-9-9-9-9-9--5-5-5-5-5-5-5-5------------------------------... X2
|-9-9-9-9-9-9-9-9--5-5-5-5-5-5-5-5--5-5-5-5-5-5-5-5--9-9-9-9-9-9...
|-7-7-7-7-7-7-7-7--3-3-3-3-3-3-3-3--5-5-5-5-5-5-5-5--9-9-9-9-9-9...
|-----------------------------------3-3-3-3-3-3-3-3--7-7-7-7-7-7...

Note: Перед самым припевом на одной из гитар делается Scratch
(Проводится медиатором вдоль струны)


POST-CHORUS

Guitar 2 играет BRIDGE 1 (свою часть), а Guitar 1 играет это :
|----------------------------------------------x
|----------------------------------------------x
|-------------5-5-5----------------5-5-5--4-4--x X1
|-2-2-2-------5-5-5-------2-2-2----5-5-5--5-5--x
|-2-2-2-------3-3-3-------2-2-2----3-3-3--2-2--x
|-0-0-0-------------------0-0-0----------------x

Затем снова играется VERSE, CHORUS


BRIDGE 2

Guitar 2
|-------------------------------x
|-------------------------------x
|-12--------11-------9-------11-x x2
|-12--------11-------9-------11-x
|-10--------9--------7--------9-x
|-------------------------------x

Guitar 1
|---------------------------------------------------------------...
|---------------------------------------------------------------...
|------------------5--5-5--5-5-5-5-------------------4--4-4--2-2... X2
|-2--2-2--2-2-2-2--5--5-5--5-5-5-5--5--5-5--5-5-5-5--4--4-4--2-2...
|-2--2-2--2-2-2-2--3--3-3--3-3-3-3--5--5-5--5-5-5-5--2--2-2--0-0...
|-0--0-0--0-0-0-0-------------------3--3-3--3-3-3-3-------------...


Guitar 1 and Guitar 2
|------------------------------------------x
|------------------------------------------x
|-9-9-9-9-9-9-9-9--------------------------x X4
|-9-9-9-9-9-9-9-9--10-10-10-12-12-12-12-12-x
|-7-7-7-7-7-7-7-7--10-10-10-12-12-12-12-12-x
|-------------------8--8--8-10-10-10-10-10-x


INTERLUDE

Guitar 1
|---------------------------------------------------------------...
|---------------------------------------------------------------...
|-9-9-9-9-9-9-9-9-9-9-9-9-9-9-9-9--12-12-12-12-12-12-12-12--11-1... X1
|-9-9-9-9-9-9-9-9-9-9-9-9-9-9-9-9--10-10-10-10-10-10-10-10--11-1...
|-7-7-7-7-7-7-7-7-7-7-7-7-7-7-7-7--10-10-10-10-10-10-10-10---9--...
|---------------------------------------------------------------...

Guitar 2 (играет вместе с Guitar 1)
|-----------------------------------------------x
|-----------------------------------------------x
|-9-9-9---------5-5-5---------------------------x X1
|-9-9-9---------5-5-5----------5-5-5----------9-x
|-7-7-7---------3-3-3----------5-5-5----------9-x
|------------------------------3-3-3----------7-x

Guitar 1
riff 1 riff 2
|-------------x |-----------------x
|-------------x |-----------------x
|---4---------x X3, затем |-----------------x X1
|-5---5p4-2h4-x |-5-4-4-5-7-5-4-5-x
|-------------x |-----------------x
|-------------x |-----------------x

|---x
|---x
|-4-x
|-4-x
|-2-x
|---x

Guitar 2 (играет вместе с Guitar 1)
|--------------------------------------------x
|--------------------------------------------x X2
|----------5-5-5-------------4-4-4-2-2-2-2-2-x
|-2-2-2----5-5-5----5-5-5----4-4-4-2-2-2-2-2-x
|-2-2-2----3-3-3----5-5-5----2-2-2-0-0-0-0-0-x
|-0-0-0-------------3-3-3--------------------x

Затем два раза играется CHORUS



ENDING

Guitar 1 and Guitar 2
|------------x
|------------x
|-9-9-9-9-9/-x
|-9-9-9-9-9/-x
|-7-7-7-7-7/-x
|------------x
  • 0

#9 barashka

    Писар

  • Користувачі
  • PipPipPipPipPipPipPipPip
  • 469 повідомлень
  • Стать:Жінка
  • Місто:Minnesota, USA :)

Відправлено 30.01.2007 – 13:20

Перегляд дописуAlatiel (10.10.2006 12:56) писав:

Соліст цієї групи Deryck Whibley 15 липня одружився з Avril Lavigne! :D
і це її весільна сукня?! я чогось оригінальнішого від неї чекала... :D
  • 0

#10 Fallen Angel

    Абориген

  • Користувачі
  • PipPipPipPip
  • 118 повідомлень
  • Стать:Чоловік

Відправлено 30.01.2007 – 15:51

Перегляд дописуALE (8.10.2006 19:33) писав:

а насправді - лайно.
попса галіма

1. сяйни смаком, за яким критерієм оцінюєш, що це "лайно" ?
2. той, хто говорить, що це попса, мабуть слухає Круга або ж нічогісінько не смислить в музиці
3. якщо воно тобі подобалось, а потім та кажеш, що це лайно, то лайновий у тебе смак, мій друже
////////////////////

гурт досить цікавий, є класні партії на лідер-гітарі. з певною долею ймовірності скажу, що той, хто їх слухає, має всі шанси перейти згодом на більш важку музику :D

Повідомлення відредагував Fallen Angel: 30.01.2007 – 15:53

  • 0

#11 дурне дитя з Венери

    Т псих 2007 [b][img]star[/img][/b]

  • Користувачі
  • PipPipPipPipPipPipPipPipPipPip
  • 1797 повідомлень
  • Стать:Чоловік
  • Місто:КИЇВ

Відправлено 30.01.2007 – 19:36

Ага, що ми й зробили) Але все одно Сам 41 прикольна група.
  • 0

#12 Funt

    Генеральний писар

  • Користувачі
  • PipPipPipPipPipPipPipPipPip
  • 625 повідомлень
  • Стать:Чоловік
  • Місто:київ

Відправлено 05.02.2007 – 14:32

Перегляд дописуJane_Air_vs_Dimon (29.01.2007 21:56) писав:

Якщо комусь цікаво, то ось аккорди на пісню Still Waiting
Guitar 1(Palm muted) So am I still waiting...
|---------------------------------------------------------------...
|---------------------------------------------------------------...
|-9-9-9-9-9-9-9-9--5-5-5-5-5-5-5-5------------------------------...
|-9-9-9-9-9-9-9-9--5-5-5-5-5-5-5-5--5-5-5-5-5-5-5-5--9-9-9-9-9-9...
|-7-7-7-7-7-7-7-7--3-3-3-3-3-3-3-3--5-5-5-5-5-5-5-5--9-9-9-9-9-9...
|-----------------------------------3-3-3-3-3-3-3-3--7-7-7-7-7-7...

|---------------------------------------------------------------...
|---------------------------------------------------------------...
|-9-9-9-9-9-9-9-9--5-5-5-5-5-5-5-5-------------------7-7-7-7-7-7...
|-9-9-9-9-9-9-9-9--5-5-5-5-5-5-5-5--5
-5-5-5-5-5-5-5--7-7-7-7-7-7-7-7-7-x
|-7-7-7-7-7-7-7-7--3-3-3-3-3-3-3-3--5-5-5-5-5-5-5-5--5-5-5-5-5-5...
|-----------------------------------3-3-3-3-3-3-3-3-------------...

Последний аккорд во вступлении не глушится.
а ту можна щось зрзуміти?
BRIDGE 1

Guitar 2
|-------------------------------------------x
|-------------------------------------------x
|-12-11-12---12-11-12---12-11-12-14-12-11-7-x играется 2 раза
|-10--9-10---10--9-10---10--9-10-12-10--9-5-x
|-------------------------------------------x
|-------------------------------------------x

Guitar 1
|---------------------------------------------------------------...
|---------------------------------------------------------------...
|------------------5-5-5-5-5-5-5-5-------------------5-5-5-5-4-4... играется 2 раза
|-2-2-2-2-2-2-2-2--5-5-5-5-5-5-5-5--2-2-2-2-2-2-2-2--5-5-5-5-5-5...
|-2-2-2-2-2-2-2-2--3-3-3-3-3-3-3-3--2-2-2-2-2-2-2-2--3-3-3-3-2-2...
|-0-0-0-0-0-0-0-0-------------------0-0-0-0-0-0-0-0-------------...
VERSE

Guitar 1 Drop dead a bullet to my head...
|--------------------------------------------------------------x...
|--------------------------------------------------------------x...
|--------------------------------------------------------------x...
|-2-2-2-2-2-2-2-2--8/7-8/7-57--2-2-2-2-2-2-2-2--5-5-5-5-5-2---x
|-2-2-2-2-2-2-2-2--8/7-8/7-57--2-2-2-2-2-2-2-2--5-5-5-5-5-2---x
|-0-0-0-0-0-0-0-0--6/5-6/5-35--0-0-0-0-0-0-0-0--3-3-3-3-3-0---x
_____pm______/ _____pm______/

|--------------------------------------------------------------x...
|--------------------------------------------------------------x...
|------------------------------------------------4-4-4-4-4-4/7-x...
|-2-2-2-2-2-2-2-2--8/7-8/7-57--2-2-2-2-2-2-2-2--4-4-4-4-4-4/5-x
|-2-2-2-2-2-2-2-2--8/7-8/5-55--2-2-2-2-2-2-2-2--2-2-2-2-2-2/5-x
|-0-0-0-0-0-0-0-0--6/5-6/5-35--0-0-0-0-0-0-0-0----------------x
_____pm______/ ______pm_____/
CHORUS

Guitar 1 and Guitar 2 So am I still waiting...
|---------------------------------------------------------------...
|---------------------------------------------------------------...
|-9-9-9-9-9-9-9-9--5-5-5-5-5-5-5-5------------------------------... X2
|-9-9-9-9-9-9-9-9--5-5-5-5-5-5-5-5--5-5-5-5-5-5-5-5--9-9-9-9-9-9...
|-7-7-7-7-7-7-7-7--3-3-3-3-3-3-3-3--5-5-5-5-5-5-5-5--9-9-9-9-9-9...
|-----------------------------------3-3-3-3-3-3-3-3--7-7-7-7-7-7...

Note: Перед самым припевом на одной из гитар делается Scratch
(Проводится медиатором вдоль струны)
POST-CHORUS

Guitar 2 играет BRIDGE 1 (свою часть), а Guitar 1 играет это :
|----------------------------------------------x
|----------------------------------------------x
|-------------5-5-5----------------5-5-5--4-4--x X1
|-2-2-2-------5-5-5-------2-2-2----5-5-5--5-5--x
|-2-2-2-------3-3-3-------2-2-2----3-3-3--2-2--x
|-0-0-0-------------------0-0-0----------------x

Затем снова играется VERSE, CHORUS
BRIDGE 2

Guitar 2
|-------------------------------x
|-------------------------------x
|-12--------11-------9-------11-x x2
|-12--------11-------9-------11-x
|-10--------9--------7--------9-x
|-------------------------------x

Guitar 1
|---------------------------------------------------------------...
|---------------------------------------------------------------...
|------------------5--5-5--5-5-5-5-------------------4--4-4--2-2... X2
|-2--2-2--2-2-2-2--5--5-5--5-5-5-5--5--5-5--5-5-5-5--4--4-4--2-2...
|-2--2-2--2-2-2-2--3--3-3--3-3-3-3--5--5-5--5-5-5-5--2--2-2--0-0...
|-0--0-0--0-0-0-0-------------------3--3-3--3-3-3-3-------------...
Guitar 1 and Guitar 2
|------------------------------------------x
|------------------------------------------x
|-9-9-9-9-9-9-9-9--------------------------x X4
|-9-9-9-9-9-9-9-9--10-10-10-12-12-12-12-12-x
|-7-7-7-7-7-7-7-7--10-10-10-12-12-12-12-12-x
|-------------------8--8--8-10-10-10-10-10-x
INTERLUDE

Guitar 1
|---------------------------------------------------------------...
|---------------------------------------------------------------...
|-9-9-9-9-9-9-9-9-9-9-9-9-9-9-9-9--12-12-12-12-12-12-12-12--11-1... X1
|-9-9-9-9-9-9-9-9-9-9-9-9-9-9-9-9--10-10-10-10-10-10-10-10--11-1...
|-7-7-7-7-7-7-7-7-7-7-7-7-7-7-7-7--10-10-10-10-10-10-10-10---9--...
|---------------------------------------------------------------...

Guitar 2 (играет вместе с Guitar 1)
|-----------------------------------------------x
|-----------------------------------------------x
|-9-9-9---------5-5-5---------------------------x X1
|-9-9-9---------5-5-5----------5-5-5----------9-x
|-7-7-7---------3-3-3----------5-5-5----------9-x
|------------------------------3-3-3----------7-x

Guitar 1
riff 1 riff 2
|-------------x |-----------------x
|-------------x |-----------------x
|---4---------x X3, затем |-----------------x X1
|-5---5p4-2h4-x |-5-4-4-5-7-5-4-5-x
|-------------x |-----------------x
|-------------x |-----------------x

|---x
|---x
|-4-x
|-4-x
|-2-x
|---x

Guitar 2 (играет вместе с Guitar 1)
|--------------------------------------------x
|--------------------------------------------x X2
|----------5-5-5-------------4-4-4-2-2-2-2-2-x
|-2-2-2----5-5-5----5-5-5----4-4-4-2-2-2-2-2-x
|-2-2-2----3-3-3----5-5-5----2-2-2-0-0-0-0-0-x
|-0-0-0-------------3-3-3--------------------x

Затем два раза играется CHORUS
ENDING

Guitar 1 and Guitar 2
|------------x
|------------x
|-9-9-9-9-9/-x
|-9-9-9-9-9/-x
|-7-7-7-7-7/-x
|------------x

  • 0

#13 Осік

    Постійний житель

  • Користувачі
  • PipPipPipPipPip
  • 129 повідомлень
  • Стать:Жінка
  • Місто:Львів

Відправлено 05.02.2007 – 18:13

попса для маленьких діточок, які на виступи на пальчик рожевий скотч намотують...фууууууууу... :gryzin:
може хоть діточки в тієї аврільки-лавіньки тру-панками будутьЗображення
  • 0

#14 Stray_Soul

    Місцевий

  • Користувачі
  • PipPipPipPipPipPip
  • 220 повідомлень
  • Стать:Жінка
  • Місто:Київ

Відправлено 05.02.2007 – 19:41

не погана група....слухати можна....
  • 0

#15 дурне дитя з Венери

    Т псих 2007 [b][img]star[/img][/b]

  • Користувачі
  • PipPipPipPipPipPipPipPipPipPip
  • 1797 повідомлень
  • Стать:Чоловік
  • Місто:КИЇВ

Відправлено 06.02.2007 – 20:35

Перегляд дописуБуллет-фор-май-Осик (5.02.2007 18:10) писав:

попса для маленьких діточок, які на виступи на пальчик рожевий скотч намотують...фууууууууу... :gryzin:
може хоть діточки в тієї аврільки-лавіньки тру-панками будутьЗображення
:happy1: :cool2: :brovy: Ти хоч сказати шо вони попсові??? А шо тоді по твоєму не попсове...
  • 0

#16 Осік

    Постійний житель

  • Користувачі
  • PipPipPipPipPip
  • 129 повідомлень
  • Стать:Жінка
  • Місто:Львів

Відправлено 07.02.2007 – 18:41

Перегляд дописуJane_Air_vs_Dimon (6.02.2007 20:32) писав:

:gryzin: :happy1: :cool2: Ти хоч сказати шо вони попсові??? А шо тоді по твоєму не попсове...

омг...краще таких питань не задавати!!!
в темі про аматорі ти захищаєш типічну мейнстрімову імо-групку...з нЄрвани одну пісню слухаєш...оффспрінгів полюбляєш...з грін дей ранні альбоми слухаєш (хоча сам біля джо говорить, що не може жодної пісні зі своєї ранньої творчості слухати бо це реальний відстій)...і тд. і тп.
сам не визначився, слухаєш все підряд...я довго чекала на розпад 182блінків і повір сам41 через рік-два буде в тій же ж@пі...для попсового мейнстріму це природнє явище...
просто коли слухаю сам41 постійно переслідує відчуття, що вже десь подібне чула і десь це вже було...таких груп зараз сотні в рік створюються...це і є попса...і ніякої оригінальності в них не бачу...
  • 0

#17 дурне дитя з Венери

    Т псих 2007 [b][img]star[/img][/b]

  • Користувачі
  • PipPipPipPipPipPipPipPipPipPip
  • 1797 повідомлень
  • Стать:Чоловік
  • Місто:КИЇВ

Відправлено 08.02.2007 – 00:47

Можливо оригінальності й у них немає, але це нормальний гурт. І слухаю я не все підряд, і на рахунок НІРВАНИ, у мене скоро будуть всі альбоми!!!! :gryzin: А Грін Дей якраз мені більше подобаються пізніші альбоми, з чого ти взяля що мені подобаються ранні???
  • 0

#18 Осік

    Постійний житель

  • Користувачі
  • PipPipPipPipPip
  • 129 повідомлень
  • Стать:Жінка
  • Місто:Львів

Відправлено 08.02.2007 – 00:53

Перегляд дописуJane_Air_vs_Dimon (8.02.2007 00:44) писав:

Можливо оригінальності й у них немає, але це нормальний гурт. І слухаю я не все підряд, і на рахунок НІРВАНИ, у мене скоро будуть всі альбоми!!!! :gryzin: А Грін Дей якраз мені більше подобаються пізніші альбоми, з чого ти взяля що мені подобаються ранні???

мвахахах...вперше чую щоб неоригінальні гурти були нормальними

всі альбоми...бє-бє-бє...да ти у нас будеш мега-тру-гранж бой...до чого тут всі альбоми?...все одно слухати будеш одне і те ж...

ну взяла я це з твоїх записюльок в темі "що ти зараз слухаєш?"
:happy1: :cool2: :brovy: :brovy: :D :brovy: :aaa:
  • 0

#19 дурне дитя з Венери

    Т псих 2007 [b][img]star[/img][/b]

  • Користувачі
  • PipPipPipPipPipPipPipPipPipPip
  • 1797 повідомлень
  • Стать:Чоловік
  • Місто:КИЇВ

Відправлено 08.02.2007 – 01:14

Подобаються мені і ті і ті, а звідки ти знаєш що мені не сподобається НІРВАНА??? А???
  • 0

#20 Осік

    Постійний житель

  • Користувачі
  • PipPipPipPipPip
  • 129 повідомлень
  • Стать:Жінка
  • Місто:Львів

Відправлено 08.02.2007 – 01:30

Перегляд дописуJane_Air_vs_Dimon (8.02.2007 01:11) писав:

Подобаються мені і ті і ті, а звідки ти знаєш що мені не сподобається НІРВАНА??? А???

Чомусь я в цьому впевнена...і чому б це..мабуть треба перечитати одноіменну тему...

а обговорюємо взагалі то "геніальну" творчість сам41...

Повідомлення відредагував Буллет-фор-май-Осик: 08.02.2007 – 01:31

  • 0



Кількість користувачів, що читають цю тему: 1

0 користувачів, 1 гостей, 0 анонімних