Перейти до вмісту

Граємо пісні "Другої ріки"


В цій темі немає відповідей

#1 Гість_Vanyok_*

  • Гості

Відправлено 19.12.2009 – 16:56

  • 0
Допоможіть, хто знає і слухає, а особливо, хто грає пісні "Другої ріки". Зацікавила пісенька "Три хвилини". На гітарі з горем пополам розібрався, хочу тепер на синтезаторі, але досвіду мало і гітарні акорди на звичайні ноти не у всіх моментах виходить перекласти. Тому прошу допомогти розписати наступні акрди:happy1:/A#, C/A. І складніше прохання: хто має аналогію у вигляді звичайних нот до такої табулатури:вступ:
E||------|--------------------------------|---------------------------------|
H||------|--------------------------------|--2-----2-----2---2--------------|
G||----1-|--3----3-----3---3-----1--------|----1-----1---------1---4----3---|
D||--4---|-----1---4-1---1---4-1---1--4---|------3-----3---3-----3---3----3-|
A||------|-----------------2------------4-|------------------1--------------|
E||------|--------------------------------|---------------------------------|

---------------------------------|-------------------------|
---------------------------------|--2-----2-----2---2------|
--3-----3-----3---3-----1--------|----1-----1--------------|
----4-1---4-1---1---4-1---1--4---|------3-----3---3--------|
------------------2------------4-|------------------1------|
---------------------------------|-------------------------|

мотив 1: 3x
------|-----------------------------------|-----------------------------------||
------|-----------------------------------|--2-----2-----2---2-----2-----2----||
----1-|*--3-----3-----3---3-----3-----3---|----1-----1---------1-----1-------*||
--4---|*----4-1---4-1---1---4-1---4-1---1-|------3-----3---3-----3-----3---3-*||
------|-------------------2---------------|--4---------------1----------------||
------|-----------------------------------|-----------------------------------||

мотив 2:
----------------------------------|--------------------------4---6--|
--------4---------------4---------|--------4---------------6--------|
------3---3---3-------3---3---3---|--6---6---6---6---6---------1----|
--1-4-------4---4---4-------4---4-|----6-------6---6---6-8----------|
------------------2---------------|------------------1--------------|
----------------------------------|---------------------------------|

----------------------------------|-------------------------------|
--------4---------------4---------|--------4---------------6------|
------3---3---3-------3---3---3---|--6---6---6---6---6-------1----|
--1-4-------4---4---4-------4---4-|----6-------6---6---6-8--------|
------------------2---------------|------------------1------------|
----------------------------------|-------------------------------|

---------------------------------|---------------------------------|
---------------------------------|--2-----2-----2---2--------------|
--3-----3-----3---3-----1--------|----1-----1---------1---4----3---|
----4-1---4-1---1---4-1---1--4---|------3-----3---3-----3---3----3-|
------------------2------------4-|------------------1--------------|
---------------------------------|---------------------------------|

---------------------------------|-------------------------||
---------------------------------|--2-----2-----2---2------||
--3-----3-----3---3-----1--------|----1-----1--------------||
----4-1---4-1---1---4-1---1--4---|------3-----3---3--------||
------------------2------------4-|------------------1------||
---------------------------------|-------------------------||????
Зарання дякую!!!!!!!!



Кількість користувачів, що читають цю тему: 1

0 користувачів, 1 гостей, 0 анонімних


Магазин кубиков Рубика Cubes.in.ua